  0
SECTION
  2
HEADER
  9
$INSBASE
 10
0.0000
 20
0.0000
  9
$EXTMIN
 10
-0.1300
 20
-0.3440
  9
$EXTMAX
 10
1.8723
 20
0.7393
  9
$LIMMIN
 10
-0.1300
 20
-0.3440
  9
$LIMMAX
 10
1.8723
 20
0.7393
  9
$VIEWCTR
 10
0.5545
 20
0.0000
  9
$VIEWSIZE
 40
1.037027
  9
$TEXTSTYLE
  7
STANDARD
  9
$CLAYER
  8
1
  0
ENDSEC
  0
SECTION
  2
TABLES
  0
TABLE
  2
LTYPE
 70
131081
  0
LTYPE
  2
CONTINUOUS
 70
    64
  3
Solid line
 72
    65
 73
     0
 40
0.0
  0
ENDTAB
  0
TABLE
  2
LAYER
 70
     4
  0
LAYER
  2
1
 70
    64
 62
     7
  6
CONTINUOUS
  0
LAYER
  2
CONSTRUCTION
 70
    64
 62
     7
  6
CONTINUOUS
  0
LAYER
  2
0
 70
    64
 62
     7
  6
CONTINUOUS
  0
LAYER
  2
default
 70
    64
 62
     7
  6
CONTINUOUS
  0
ENDTAB
  0
TABLE
  2
STYLE
 70
     1
  0
STYLE
  2
STANDARD
 70
     0
 40
0.0
 41
1.0
 50
0.0
 71
     0
 42
0.2
  3
txt
  4

  0
ENDTAB
  0
TABLE
  2
VIEW
 70
     0
  0
ENDTAB
  0
ENDSEC
  0
SECTION
  2
BLOCKS
  0
ENDSEC
  0
SECTION
  2
ENTITIES
  0
LINE
  8
1
 10
-0.0400
 20
-0.2420
 11
-0.0400
 21
-0.0680
  0
LINE
  8
1
 10
-0.0800
 20
-0.0290
 11
-0.0400
 21
-0.0680
  0
LINE
  8
1
 10
-0.0800
 20
-0.0290
 11
-0.0800
 21
0.0290
  0
LINE
  8
1
 10
-0.0800
 20
0.0290
 11
-0.0400
 21
0.0680
  0
LINE
  8
1
 10
-0.0400
 20
0.0680
 11
-0.0400
 21
0.2089
  0
LINE
  8
1
 10
0.7620
 20
-0.1920
 11
0.7770
 21
-0.1770
  0
LINE
  8
1
 10
0.6610
 20
-0.0500
 11
0.6760
 21
-0.0500
  0
LINE
  8
1
 10
0.6610
 20
0.0500
 11
0.6760
 21
0.0500
  0
LINE
  8
1
 10
0.6910
 20
-0.1770
 11
0.6910
 21
-0.0650
  0
LINE
  8
1
 10
0.1300
 20
-0.0501
 11
0.1300
 21
0.0501
  0
LINE
  8
1
 10
0.1770
 20
-0.1920
 11
0.2350
 21
-0.1920
  0
LINE
  8
1
 10
0.1050
 20
-0.1920
 11
0.1770
 21
-0.1920
  0
LINE
  8
1
 10
0.0900
 20
-0.1770
 11
0.1050
 21
-0.1920
  0
LINE
  8
1
 10
0.0900
 20
-0.1770
 11
0.0900
 21
-0.0891
  0
LINE
  8
1
 10
0.0900
 20
-0.0891
 11
0.1300
 21
-0.0501
  0
LINE
  8
1
 10
1.1740
 20
-0.3200
 11
1.1890
 21
-0.3050
  0
LINE
  8
1
 10
1.1890
 20
-0.3050
 11
1.1890
 21
0.0000
  0
LINE
  8
1
 10
1.0440
 20
-0.3200
 11
1.1740
 21
-0.3200
  0
LINE
  8
1
 10
1.0140
 20
-0.0500
 11
1.0290
 21
-0.0650
  0
LINE
  8
1
 10
1.0290
 20
-0.3050
 11
1.0440
 21
-0.3200
  0
LINE
  8
1
 10
1.0290
 20
-0.3050
 11
1.0290
 21
-0.0650
  0
LINE
  8
1
 10
0.7920
 20
-0.0500
 11
1.0140
 21
-0.0500
  0
LINE
  8
1
 10
0.9640
 20
-0.1000
 11
0.9790
 21
-0.1150
  0
LINE
  8
1
 10
0.8270
 20
-0.1150
 11
0.8420
 21
-0.1000
  0
LINE
  8
1
 10
0.8120
 20
-0.2420
 11
0.8270
 21
-0.2270
  0
LINE
  8
1
 10
0.8270
 20
-0.2270
 11
0.8270
 21
-0.1150
  0
LINE
  8
1
 10
0.8420
 20
-0.1000
 11
0.9640
 21
-0.1000
  0
LINE
  8
1
 10
0.7590
 20
-0.3200
 11
0.7590
 21
-0.2420
  0
LINE
  8
1
 10
0.7590
 20
-0.2420
 11
0.8120
 21
-0.2420
  0
LINE
  8
1
 10
0.9790
 20
-0.2420
 11
0.9790
 21
-0.1150
  0
LINE
  8
1
 10
0.9010
 20
-0.3200
 11
0.9790
 21
-0.2420
  0
LINE
  8
1
 10
0.7590
 20
-0.3200
 11
0.9010
 21
-0.3200
  0
LINE
  8
1
 10
0.6460
 20
-0.0650
 11
0.6610
 21
-0.0500
  0
LINE
  8
1
 10
0.7770
 20
-0.0650
 11
0.7920
 21
-0.0500
  0
LINE
  8
1
 10
0.7770
 20
-0.1770
 11
0.7770
 21
-0.0650
  0
LINE
  8
1
 10
0.7770
 20
-0.1770
 11
0.7770
 21
-0.0650
  0
LINE
  8
1
 10
0.6910
 20
-0.1770
 11
0.7060
 21
-0.1920
  0
LINE
  8
1
 10
0.7060
 20
-0.1920
 11
0.7620
 21
-0.1920
  0
LINE
  8
1
 10
0.6760
 20
-0.0500
 11
0.6910
 21
-0.0650
  0
LINE
  8
1
 10
0.5510
 20
-0.0500
 11
0.5660
 21
-0.0650
  0
LINE
  8
1
 10
0.5160
 20
-0.0650
 11
0.5310
 21
-0.0500
  0
LINE
  8
1
 10
0.4150
 20
-0.0500
 11
0.4300
 21
-0.0650
  0
LINE
  8
1
 10
0.3800
 20
-0.0650
 11
0.3950
 21
-0.0500
  0
LINE
  8
1
 10
0.2850
 20
-0.0500
 11
0.3000
 21
-0.0650
  0
LINE
  8
1
 10
0.2500
 20
-0.0650
 11
0.2650
 21
-0.0500
  0
LINE
  8
1
 10
0.5010
 20
-0.1920
 11
0.5160
 21
-0.1770
  0
LINE
  8
1
 10
0.4300
 20
-0.1770
 11
0.4450
 21
-0.1920
  0
LINE
  8
1
 10
0.6460
 20
-0.1300
 11
0.6460
 21
-0.0650
  0
LINE
  8
1
 10
0.5660
 20
-0.1300
 11
0.6460
 21
-0.1300
  0
LINE
  8
1
 10
0.5660
 20
-0.1300
 11
0.5660
 21
-0.0650
  0
LINE
  8
1
 10
0.5310
 20
-0.0500
 11
0.5510
 21
-0.0500
  0
LINE
  8
1
 10
0.5160
 20
-0.1770
 11
0.5160
 21
-0.0650
  0
LINE
  8
1
 10
0.4450
 20
-0.1920
 11
0.5010
 21
-0.1920
  0
LINE
  8
1
 10
0.4300
 20
-0.1770
 11
0.4300
 21
-0.0650
  0
LINE
  8
1
 10
0.3950
 20
-0.0500
 11
0.4150
 21
-0.0500
  0
LINE
  8
1
 10
0.3800
 20
-0.1300
 11
0.3800
 21
-0.0650
  0
LINE
  8
1
 10
0.3000
 20
-0.1300
 11
0.3800
 21
-0.1300
  0
LINE
  8
1
 10
0.3000
 20
-0.1300
 11
0.3000
 21
-0.0650
  0
LINE
  8
1
 10
0.2650
 20
-0.0500
 11
0.2850
 21
-0.0500
  0
LINE
  8
1
 10
0.6460
 20
-0.2270
 11
0.6610
 21
-0.2420
  0
LINE
  8
1
 10
0.5510
 20
-0.2420
 11
0.5660
 21
-0.2270
  0
LINE
  8
1
 10
0.4930
 20
-0.3200
 11
0.5021
 21
-0.3200
  0
LINE
  8
1
 10
0.5021
 20
-0.3200
 11
0.7090
 21
-0.3200
  0
LINE
  8
1
 10
0.7090
 20
-0.3200
 11
0.7090
 21
-0.2420
  0
LINE
  8
1
 10
0.6610
 20
-0.2420
 11
0.7090
 21
-0.2420
  0
LINE
  8
1
 10
0.6460
 20
-0.2270
 11
0.6460
 21
-0.1800
  0
LINE
  8
1
 10
0.5660
 20
-0.1800
 11
0.6460
 21
-0.1800
  0
LINE
  8
1
 10
0.5660
 20
-0.2270
 11
0.5660
 21
-0.1800
  0
LINE
  8
1
 10
0.4930
 20
-0.2420
 11
0.5510
 21
-0.2420
  0
LINE
  8
1
 10
0.4930
 20
-0.3200
 11
0.4930
 21
-0.2420
  0
LINE
  8
1
 10
0.3800
 20
-0.2270
 11
0.3950
 21
-0.2420
  0
LINE
  8
1
 10
0.2850
 20
-0.2420
 11
0.3000
 21
-0.2270
  0
LINE
  8
1
 10
0.2270
 20
-0.3200
 11
0.2361
 21
-0.3200
  0
LINE
  8
1
 10
0.2361
 20
-0.3200
 11
0.4430
 21
-0.3200
  0
LINE
  8
1
 10
0.4430
 20
-0.3200
 11
0.4430
 21
-0.2420
  0
LINE
  8
1
 10
0.3950
 20
-0.2420
 11
0.4430
 21
-0.2420
  0
LINE
  8
1
 10
0.3800
 20
-0.2270
 11
0.3800
 21
-0.1800
  0
LINE
  8
1
 10
0.3000
 20
-0.1800
 11
0.3800
 21
-0.1800
  0
LINE
  8
1
 10
0.3000
 20
-0.2270
 11
0.3000
 21
-0.1800
  0
LINE
  8
1
 10
0.2270
 20
-0.2420
 11
0.2850
 21
-0.2420
  0
LINE
  8
1
 10
0.2270
 20
-0.3200
 11
0.2270
 21
-0.2420
  0
LINE
  8
1
 10
0.2350
 20
-0.1920
 11
0.2500
 21
-0.1770
  0
LINE
  8
1
 10
0.2500
 20
-0.1770
 11
0.2500
 21
-0.0650
  0
LINE
  8
1
 10
1.1740
 20
0.3200
 11
1.1890
 21
0.3050
  0
LINE
  8
1
 10
1.1890
 20
0.0000
 11
1.1890
 21
0.3050
  0
LINE
  8
1
 10
1.0440
 20
0.3200
 11
1.1740
 21
0.3200
  0
LINE
  8
1
 10
1.0140
 20
0.0500
 11
1.0290
 21
0.0650
  0
LINE
  8
1
 10
1.0290
 20
0.3050
 11
1.0440
 21
0.3200
  0
LINE
  8
1
 10
1.0290
 20
0.0650
 11
1.0290
 21
0.3050
  0
LINE
  8
1
 10
0.7920
 20
0.0500
 11
1.0140
 21
0.0500
  0
LINE
  8
1
 10
0.9640
 20
0.1000
 11
0.9790
 21
0.1150
  0
LINE
  8
1
 10
0.8270
 20
0.1150
 11
0.8420
 21
0.1000
  0
LINE
  8
1
 10
0.8120
 20
0.2420
 11
0.8270
 21
0.2270
  0
LINE
  8
1
 10
0.8270
 20
0.1150
 11
0.8270
 21
0.2270
  0
LINE
  8
1
 10
0.8420
 20
0.1000
 11
0.9640
 21
0.1000
  0
LINE
  8
1
 10
0.7590
 20
0.2420
 11
0.7590
 21
0.3200
  0
LINE
  8
1
 10
0.7590
 20
0.2420
 11
0.8120
 21
0.2420
  0
LINE
  8
1
 10
0.9790
 20
0.1150
 11
0.9790
 21
0.2420
  0
LINE
  8
1
 10
0.9010
 20
0.3200
 11
0.9790
 21
0.2420
  0
LINE
  8
1
 10
0.7590
 20
0.3200
 11
0.9010
 21
0.3200
  0
LINE
  8
1
 10
0.6460
 20
0.0650
 11
0.6610
 21
0.0500
  0
LINE
  8
1
 10
0.7770
 20
0.0650
 11
0.7920
 21
0.0500
  0
LINE
  8
1
 10
0.7770
 20
0.0650
 11
0.7770
 21
0.1770
  0
LINE
  8
1
 10
0.7620
 20
0.1920
 11
0.7770
 21
0.1770
  0
LINE
  8
1
 10
0.7770
 20
0.0650
 11
0.7770
 21
0.1770
  0
LINE
  8
1
 10
0.6910
 20
0.1770
 11
0.7060
 21
0.1920
  0
LINE
  8
1
 10
0.7060
 20
0.1920
 11
0.7620
 21
0.1920
  0
LINE
  8
1
 10
0.6760
 20
0.0500
 11
0.6910
 21
0.0650
  0
LINE
  8
1
 10
0.6910
 20
0.0650
 11
0.6910
 21
0.1770
  0
LINE
  8
1
 10
0.5510
 20
0.0500
 11
0.5660
 21
0.0650
  0
LINE
  8
1
 10
0.5160
 20
0.0650
 11
0.5310
 21
0.0500
  0
LINE
  8
1
 10
0.4150
 20
0.0500
 11
0.4300
 21
0.0650
  0
LINE
  8
1
 10
0.3800
 20
0.0650
 11
0.3950
 21
0.0500
  0
LINE
  8
1
 10
0.2850
 20
0.0500
 11
0.3000
 21
0.0650
  0
LINE
  8
1
 10
0.2500
 20
0.0650
 11
0.2650
 21
0.0500
  0
LINE
  8
1
 10
0.5010
 20
0.1920
 11
0.5160
 21
0.1770
  0
LINE
  8
1
 10
0.4300
 20
0.1770
 11
0.4450
 21
0.1920
  0
LINE
  8
1
 10
0.6460
 20
0.0650
 11
0.6460
 21
0.1300
  0
LINE
  8
1
 10
0.5660
 20
0.1300
 11
0.6460
 21
0.1300
  0
LINE
  8
1
 10
0.5660
 20
0.0650
 11
0.5660
 21
0.1300
  0
LINE
  8
1
 10
0.5310
 20
0.0500
 11
0.5510
 21
0.0500
  0
LINE
  8
1
 10
0.5160
 20
0.0650
 11
0.5160
 21
0.1770
  0
LINE
  8
1
 10
0.4450
 20
0.1920
 11
0.5010
 21
0.1920
  0
LINE
  8
1
 10
0.4300
 20
0.0650
 11
0.4300
 21
0.1770
  0
LINE
  8
1
 10
0.3950
 20
0.0500
 11
0.4150
 21
0.0500
  0
LINE
  8
1
 10
0.3800
 20
0.0650
 11
0.3800
 21
0.1300
  0
LINE
  8
1
 10
0.3000
 20
0.1300
 11
0.3800
 21
0.1300
  0
LINE
  8
1
 10
0.3000
 20
0.0650
 11
0.3000
 21
0.1300
  0
LINE
  8
1
 10
0.2650
 20
0.0500
 11
0.2850
 21
0.0500
  0
LINE
  8
1
 10
0.6460
 20
0.2270
 11
0.6610
 21
0.2420
  0
LINE
  8
1
 10
0.5510
 20
0.2420
 11
0.5660
 21
0.2270
  0
LINE
  8
1
 10
0.4930
 20
0.3200
 11
0.5021
 21
0.3200
  0
LINE
  8
1
 10
0.5021
 20
0.3200
 11
0.7090
 21
0.3200
  0
LINE
  8
1
 10
0.7090
 20
0.2420
 11
0.7090
 21
0.3200
  0
LINE
  8
1
 10
0.6610
 20
0.2420
 11
0.7090
 21
0.2420
  0
LINE
  8
1
 10
0.6460
 20
0.1800
 11
0.6460
 21
0.2270
  0
LINE
  8
1
 10
0.5660
 20
0.1800
 11
0.6460
 21
0.1800
  0
LINE
  8
1
 10
0.5660
 20
0.1800
 11
0.5660
 21
0.2270
  0
LINE
  8
1
 10
0.4930
 20
0.2420
 11
0.5510
 21
0.2420
  0
LINE
  8
1
 10
0.4930
 20
0.2420
 11
0.4930
 21
0.3200
  0
LINE
  8
1
 10
0.3800
 20
0.2270
 11
0.3950
 21
0.2420
  0
LINE
  8
1
 10
0.2850
 20
0.2420
 11
0.3000
 21
0.2270
  0
LINE
  8
1
 10
0.2270
 20
0.3200
 11
0.2361
 21
0.3200
  0
LINE
  8
1
 10
0.2361
 20
0.3200
 11
0.4430
 21
0.3200
  0
LINE
  8
1
 10
0.4430
 20
0.2420
 11
0.4430
 21
0.3200
  0
LINE
  8
1
 10
0.3950
 20
0.2420
 11
0.4430
 21
0.2420
  0
LINE
  8
1
 10
0.3800
 20
0.1800
 11
0.3800
 21
0.2270
  0
LINE
  8
1
 10
0.3000
 20
0.1800
 11
0.3800
 21
0.1800
  0
LINE
  8
1
 10
0.3000
 20
0.1800
 11
0.3000
 21
0.2270
  0
LINE
  8
1
 10
0.2270
 20
0.2420
 11
0.2850
 21
0.2420
  0
LINE
  8
1
 10
0.2270
 20
0.2420
 11
0.2270
 21
0.3200
  0
LINE
  8
1
 10
0.2350
 20
0.1920
 11
0.2500
 21
0.1770
  0
LINE
  8
1
 10
0.2500
 20
0.0650
 11
0.2500
 21
0.1770
  0
LINE
  8
1
 10
0.1770
 20
0.1920
 11
0.2350
 21
0.1920
  0
LINE
  8
1
 10
0.0900
 20
0.1770
 11
0.1050
 21
0.1920
  0
LINE
  8
1
 10
0.0900
 20
0.0891
 11
0.0900
 21
0.1770
  0
LINE
  8
1
 10
0.1050
 20
0.1920
 11
0.1770
 21
0.1920
  0
LINE
  8
1
 10
0.0900
 20
0.0891
 11
0.1300
 21
0.0501
  0
LINE
  8
1
 10
0.1770
 20
-0.3200
 11
0.1770
 21
-0.2420
  0
LINE
  8
1
 10
0.1770
 20
0.2420
 11
0.1770
 21
0.3200
  0
LINE
  8
1
 10
0.0746
 20
-0.2420
 11
0.1770
 21
-0.2420
  0
LINE
  8
1
 10
0.0400
 20
-0.2083
 11
0.0746
 21
-0.2420
  0
LINE
  8
1
 10
0.0400
 20
-0.3200
 11
0.1770
 21
-0.3200
  0
LINE
  8
1
 10
0.0800
 20
-0.2420
 11
0.1770
 21
-0.2420
  0
LINE
  8
1
 10
0.0731
 20
0.2420
 11
0.1770
 21
0.2420
  0
LINE
  8
1
 10
0.0380
 20
0.3200
 11
0.1770
 21
0.3200
  0
LINE
  8
1
 10
-0.0400
 20
0.2420
 11
0.0380
 21
0.3200
  0
LINE
  8
1
 10
-0.0400
 20
0.2420
 11
0.0380
 21
0.3200
  0
LINE
  8
1
 10
0.0400
 20
-0.2083
 11
0.0400
 21
-0.0680
  0
LINE
  8
1
 10
0.0400
 20
0.0680
 11
0.0400
 21
0.2089
  0
LINE
  8
1
 10
0.0800
 20
-0.0290
 11
0.0800
 21
0.0290
  0
LINE
  8
1
 10
-0.0800
 20
-0.0207
 11
-0.0800
 21
0.0207
  0
LINE
  8
1
 10
0.0400
 20
-0.0680
 11
0.0800
 21
-0.0290
  0
LINE
  8
1
 10
0.0400
 20
0.0680
 11
0.0800
 21
0.0290
  0
LINE
  8
1
 10
-0.0400
 20
0.0680
 11
-0.0400
 21
0.2420
  0
LINE
  8
1
 10
0.0400
 20
0.2089
 11
0.0731
 21
0.2420
  0
LINE
  8
1
 10
-0.0400
 20
-0.2420
 11
0.0400
 21
-0.3200
  0
CIRCLE
  8
1
 10
0.9070
 20
-0.1800
 40
0.0313
  0
CIRCLE
  8
1
 10
0.9070
 20
0.1800
 40
0.0313
  0
CIRCLE
  8
1
 10
0.1700
 20
-0.1160
 40
0.0313
  0
CIRCLE
  8
1
 10
1.1090
 20
-0.0750
 40
0.0313
  0
CIRCLE
  8
1
 10
1.1090
 20
-0.2470
 40
0.0313
  0
CIRCLE
  8
1
 10
1.1090
 20
0.0750
 40
0.0313
  0
CIRCLE
  8
1
 10
1.1090
 20
0.2470
 40
0.0313
  0
CIRCLE
  8
1
 10
0.1700
 20
0.1160
 40
0.0313
  0
CIRCLE
  8
1
 10
0.0000
 20
0.0000
 40
0.0313
  0
LINE
  8
1
 10
-0.1300
 20
0.3440
 11
-0.1300
 21
-0.3440
  0
LINE
  8
1
 10
1.3700
 20
0.3440
 11
1.3700
 21
-0.3440
  0
LINE
  8
1
 10
-0.1300
 20
0.3440
 11
1.3700
 21
0.3440
  0
LINE
  8
1
 10
-0.1300
 20
-0.3440
 11
1.3700
 21
-0.3440
  0
SOLID
  8
1
 10
0.0549
 20
0.6448
 11
0.0549
 21
0.5837
 12
-0.1300
 22
0.6143
 13
-0.1300
 23
0.6143
  0
SOLID
  8
1
 10
1.1850
 20
0.5837
 11
1.1850
 21
0.6448
 12
1.3700
 22
0.6143
 13
1.3700
 23
0.6143
  0
LINE
  8
1
 10
-0.1300
 20
0.6143
 11
0.3593
 21
0.6143
  0
LINE
  8
1
 10
0.8269
 20
0.6143
 11
1.3700
 21
0.6143
  0
TEXT
  8
1
 10
0.4219
 20
0.5499
 40
0.1263
  1
1.50
  0
LINE
  8
1
 10
-0.1300
 20
0.4065
 11
-0.1300
 21
0.7393
  0
LINE
  8
1
 10
1.3700
 20
0.4065
 11
1.3700
 21
0.7393
  0
SOLID
  8
1
 10
1.7784
 20
0.1590
 11
1.7161
 21
0.1590
 12
1.7473
 22
0.3440
 13
1.7473
 23
0.3440
  0
SOLID
  8
1
 10
1.7161
 20
-0.1590
 11
1.7784
 21
-0.1590
 12
1.7473
 22
-0.3440
 13
1.7473
 23
-0.3440
  0
LINE
  8
1
 10
1.7473
 20
0.1220
 11
1.7473
 21
0.3440
  0
LINE
  8
1
 10
1.7473
 20
-0.3440
 11
1.7473
 21
-0.1698
  0
TEXT
  8
1
 10
1.6235
 20
-0.0883
 40
0.1263
  1
.69
  0
LINE
  8
1
 10
1.4325
 20
0.3440
 11
1.8723
 21
0.3440
  0
LINE
  8
1
 10
1.4325
 20
-0.3440
 11
1.8723
 21
-0.3440
  0
ENDSEC
  0
EOF
